Blur - song

songBlur2:01

Текст песни Blur - song

Song: Song 2
Artist: blur

intro and verse ( clean )

e----------------------------------------------|
B-----------------------9-9--11--13--13-13-13--|
G-10-10--xx--8-8-8--xx--8-8--10--12--12-12-12--|
D-10-10--xx--8-8-8--xx--6-6---8--10--10-10-10--|
A--8--8--xx--6-6-6--xx-------------------------|
E----------------------------------------------|

chorus ( heavy distortion )

e-------------------------------------------|
B-------------------------------------------|

G-------------------------------------------|
D--3-3--xx--1-1-1-xx--6-6--8--10--10-10-10--|
A--3-3--xx--1-1-1-xx--6-6--8--10--10-10-10--|
E--1-1--xx--------xx--4-4--6---8---8--8--8--|

e--------------------------------------------------------------------|
B--------------------------------------------------------------------|
G-----------------------------------6-6-6-6-6-6-6-6-6-6-6-6-6-6-6-6--|
D-3-3-3-3-3-3-3-3--6-6-6-6-6-6-6-6--6-6-6-6-6-6-6-6-6-6-6-6-6-6-6-6--|
A-3-3-3-3-3-3-3-3--6-6-6-6-6-6-6-6--4-4-4-4-4-4-4-4-4-4-4-4-4-4-4-4--|
E-1-1-1-1-1-1-1-1--4-4-4-4-4-4-4-4-----------------------------------|

thatz all wot u need to play this ***ing ass kicking song. iґm sure.... thatz 100% correct!!
for correction and commentz : davinchiii@hotmail.com

Другие песни исполнителя

ПесняИсполнительВремя
01the universalBlur3:59
02trailerparkBlur4:26
03trimm trabbBlur5:37
04star shapedBlur3:26
05tracy jacksBlur4:20
06birthdayBlur3:50

Слова и текст песни Blur song предоставлены сайтом Megalyrics.ru. Текст Blur song найден в открытых источниках или добавлен нашими пользователями.

Использование и размещение перевода возможно исключиетльно при указании ссылки на megalyrics.ru

О чем песня

Blur - song?

User comments
Прикрепить

Слушать онлайн Blur song на Megalyrics — легко и просто. Просто нажмите кнопку play вверху страницы. Чтобы добавить в плейлист, нажмите на плюс около кнопки плей. В правой части страницы расположен клип, а также код для вставки в блог.

Новые тексты и переводы

Пожалуйста, включите JavaScript

Он необходим для работы плеера. Как это сделать