Europe - The final countdoun

Текст песни Europe - The final countdoun

Intro:
F#m / D / Bm / E
F#m / D / Bm / E
F#m G#/E / A D / C#


Verse:
F#m
We're leaving together,
Bm
But still it's farewell
F#m
And maybe we'll come back,
F#m G#/E A
To earth, who can tell?
D E
I guess there is no one to blame
A G#/E F#m E D
We're leaving ground (leaving ground)
C# EE EE E
Will things ever be the same again?

F#m D Bm E
It's the final countdown...
F#m D Bm E
the final countdown... Ohhh,

F#m
we're heading for Venus
F#m Bm
and still we stand tall
F#m
Cause maybe they've seen us
F#m G#/E A
and welcome us all
D E
With so many light years to go
A G#/E F#m E D
and things to be found (to be found)
C#m EE EE E
I'm sure that we'll all miss her so.

F#m D Bm E
It's the final countdown...
F#m D Bm E
the final countdown...
F#m G#/E A D C# F#m
the final countdown... Ohhh!!!

SOLO:

Bm A D
||-----------------------------------------------------------------------------
||0h3h7p0h3h7p0h3h7p0h3h7p0h3h7p0h2h5h8p2h5h8p2h5h8p2h5h8p2h5h8p2/3h7h10p3h7h10
||.----------------------------------------------------------------------------
||.----------------------------------------------------------------------------
||-----------------------------------------------------------------------------
||-----------------------------------------------------------------------------
t t t t t t t t t t t t
___
|1.
G Em | A
-------------------------------------------------------------------------|----
P3h7h10p3h7h10p3h7h10-8-8------------------------------------------------|----
--------------------------12h14h16p14-1211h12p11--------12-12-12-11-9---|----
-------------------------------------------------14p12h14-------------12-|-12-
-------------------------------------------------------------------------|----
-------------------------------------------------------------------------|----
t t t
___
|2.
Bm F# | A Bm
----------------------------------------------------------||----------------
------10b12-10b12r10--------------------------------------||10b12r10--------
--------------------9-11--9-11-12p11p9--11p9p7--9p7p6-7-9.||--------7-9-11_-
11-9----------------------------------12------11-----9---.||----------------
----12----------------------------------------------------||----------------
----------------------------------------------------------||----------------


C#
----------|
----12----|
-11b13r11-|
----------|
----------|
----------|


F#m / D / Bm / E
F#m / D / Bm / E
F#m G#/E A D C#
The final countdown... oh-oh


F#m

Другие песни исполнителя

Слова и текст песни Europe The final countdoun предоставлены сайтом Megalyrics.ru. Текст Europe The final countdoun найден в открытых источниках или добавлен нашими пользователями.

Использование и размещение перевода возможно исключиетльно при указании ссылки на megalyrics.ru

О чем песня

Europe - The final countdoun?

User comments
Прикрепить

Слушать онлайн Europe The final countdoun на Megalyrics — легко и просто. Просто нажмите кнопку play вверху страницы. Чтобы добавить в плейлист, нажмите на плюс около кнопки плей. В правой части страницы расположен клип, а также код для вставки в блог.

Новые тексты и переводы

Пожалуйста, включите JavaScript

Он необходим для работы плеера. Как это сделать