Fleetwood Mac - my little demon

Текст песни Fleetwood Mac - my little demon

Author/Artist: Fleetwood Mac
Title: My Little Demon
Album: The Dance
Transcribed by: Giz
Email: giz_hornebast@hotmail.com

Intro:

ooh, ahh, ooh, ahh

Verse 1:

My little demon comin' on down

e|------------------------|
B|------------------------|
G|--5-5---3-3---5-5---7-7-|
D|------------------------|
A|------------------------|
E|------------------------|

My little demon's turning me around

e|------------------------|
B|------------------------|
G|--5-5---3-3---5-5---7-7-|
D|------------------------|
A|------------------------|
E|------------------------|

All of my friends, oh, telling me

e|------------------------|
B|------------------------|
G|--5-5---3-3---5-5---7-7-|
D|------------------------|
A|------------------------|
E|------------------------|

That I just ain't the man I used to be

e|------------------------|
B|------------------------|
G|--5-5---3-3---5-5---7-7-|
D|------------------------|
A|------------------------|
E|------------------------|

Chorus:

F F Bb Bb
I really don't like it
F F Bb Bb
Ain't nothin' I can do
F F Bb Bb
I really don't like it
F F Bb Bb
I've given it to you

(During Chorus)
e|--5-5--6-6--5-5--6-6--|-----|
B|----------------------|-4/6-|
G|----------------------|-----|
D|----------------------|-----|
A|----------------------|-----|
E|----------------------|-----| x2

(After Chorus)
e|----------------/6--6-5-6--6-5-6-5-6--6-5-6---6p5p3---------|
B|-----4/6vv------------------------------------------6--3----|
G|---------------------------------------------------------3--|
D|------------------------------------------------------------|
A|------------------------------------------------------------|
E|------------------------------------------------------------|

Verse 2:
(As Verse 1)

My little demon's making me choose
Makin' me an offer I can refuse
Hard as a rock dry as a bone
Big dog, little dog, I'll take ya home

Chorus:
(As Chorus 1)

Bridge

ooh, ahh, ooh, ahh


F5
Why try to hide it
F5
Fight it,
F5
Fight it!!

Solo:

|-14b-14---12h14p12--11----12-14b-14--12h14p12--11-12--12b----11-12-11-12-----
|-----------------------------------------------------------------------------
|-----------------------------------------------------------------------------
|-----------------------------------------------------------------------------
|-----------------------------------------------------------------------------
|-----------------------------------------------------------------------------


------------------------------------------------------------------------------
--11-10-11v----10--11v-----11-11--10-11--10--------------------------3--6-----
--------------------------------------------10-7-10-----5-7v-----3-5------5---
------------------------------------------------------8-----------------------
------------------------------------------------------------------------------
------------------------------------------------------------------------------


------------|
------------|
-5-5--3v----|
------------|
------------|
------------|

Verse 4:

My little demon,
Is comin' after me
My little demon,
it's all that I can do,
*
To keep that little demon,
To keep that little demon,
To keep that little demon,

Away from you

(Verse 3) *
-|----------------------------|-----------------------------------------------
-|----------------------------|--------------11-----11--------------------11--
-|----------------------------|----------13b----13b-------------------13b-----
-|----------------------------|-8---8-8-------------------8---8--8------------
-|----------------------------|-8---8-8-------------------8---8--8------------
-|-6--6-6---6--6-6----6--6-6--|-6---6-6-------------------6---6--6------------
Bass arr. cont.

------------------------------------------------------------------------------
-11-----11-11----11-----------14b-14b-14b--14br-11-----11----------11--11-----
----13b-------13b----------------------------------13b-------------13b-13b----
---------------------8--8-8-------------------------------8--8-8--------------
---------------------8--8-8-------------------------------8--8-8--------------
---------------------6--6-6-------------------------------6--6-6--------------


----------|
-11--11---|
-13b-13b--|
----------|
----------|
----------|

Outro/Solo:

Bb
-|-16b-16p14----14-16-----16b-16p14----14-----16b-16p14----14-16--------------
-|-----------16---------------------16------------------16-------16b-16p14----
-|-------------------------------------------------------------------------15-
-|----------------------------------------------------------------------------
-|----------------------------------------------------------------------------
-|----------------------------------------------------------------------------


---|--11-11-11----x--x--x---11-11-11---x--x---x----x--x--x--|-19-19-19-19---
---|--11-14-11---14-16-11---11-11-11---14-16b-11---11-11-11-|-19-19-19-19-----
-15|--------------------------------------------------------|-----------------
---|--------------------------------------------------------|-----------------
---|--------------------------------------------------------|-----------------
---|--------------------------------------------------------|-----------------
x2 x4

Другие песни исполнителя

ПесняИсполнительВремя
01hold meFleetwood Mac3:47
02im so afraidFleetwood Mac4:31
03man of the worldFleetwood Mac2:48
04need your love so badFleetwood Mac3:48
05never going back againFleetwood Mac2:15
06oh wellFleetwood Mac2:23

Слова и текст песни Fleetwood Mac my little demon предоставлены сайтом Megalyrics.ru. Текст Fleetwood Mac my little demon найден в открытых источниках или добавлен нашими пользователями.

Использование и размещение перевода возможно исключиетльно при указании ссылки на megalyrics.ru

О чем песня

Fleetwood Mac - my little demon?

User comments
Прикрепить

Слушать онлайн Fleetwood Mac my little demon на Megalyrics — легко и просто. Просто нажмите кнопку play вверху страницы. Чтобы добавить в плейлист, нажмите на плюс около кнопки плей. В правой части страницы расположен клип, а также код для вставки в блог.

Новые тексты и переводы

Пожалуйста, включите JavaScript

Он необходим для работы плеера. Как это сделать