Fleetwood Mac - rhiannon

Текст песни Fleetwood Mac - rhiannon

Rhiannon Live
Mirage Tour 1982
Fleetwood Mac

Intro

Am Bm/A C/A Bm/A Am G/A Am
G/A F G7/F F G7/F G7/F F

E||--------------------------|-------------------------|
B||---1--3-----5-------3-----|--1--0-------------------|
G||*--2--4-----5-------4-----|--2--0-----2~------------|
D||*-------------------------|-----------2~------------|
A||---0-----0--0--0~---0--0--|--0-----0-----0----0-----|
E||--------------------------|----------------------0--|

|-------------------------|-------------------------|
|-----0-----1-------0--0--|-------------------------|
|--2--0-----2-------0--0--|-----2------------------*|
|--3----------------------|-----3------------------*|
|-------------------------|-------------------------|
|--1-----1--1--1----1--1--|--1-----1----1----1--0---|

Verse

Am
Rhiannon rings like a bell thru the night
F
and wouldn't you love to love her?
Am
Takes to the sky like a bird in flight
F
and who will be her lover?

Bridge

C
All your life you've never seen a
F
woman taken by the wind
C
Would you stay if she promised you heaven?
F
Will you even try?

Verse

Am
She is like a cat in the dark
F
and then she is the darkness
Am
She rules her life like a fine skylark
F
When the sky is starless

Bridge

C
All your life you've never seen a woman
F
taken by the sky
C
Would you stay if she promised you heaven?
F
Would you even try... would you even try?

Chorus

Am F
E||--------------------------|-------------------------|Rhiannon....
B||---1--3-----5-------3-----|--1--0-------------------|
G||*--2--4-----5-------4-----|--2--0-----2~------------|
D||*-------------------------|-----------2~------------|
A||---0-----0--0--0~---0--0--|--0-----0-----0----0-----|
E||--------------------------|----------------------0--|
x3
F
Rhiannon.....
|---------------| or|--------------------------|
|-1-0-1-3-1-0---| |-1p0-3p0-1p0-3p0-1p0-3p0--|
|-2-0-2-4-2-0-2-| |------------------------2-|
|-------------3-| |--------------------------|
|---------------| |--------------------------|
|---------------| |--------------------------|

Verse

Am
She rings like a bell thru the night
F
Wouldn't you love to love her?
Am
Takes to the sky like a bird in flight
F
and who will be her lover?

Bridge

C
All your life you've never seen a
F
woman taken by the sky
C
Would you stay if she promised you heaven?
F
Would you even try.......Would you even try?

Chorus

Am F
E||--------------------------|-------------------------|
B||---1--3-----5-------3-----|--1--0-------------------|
G||*--2--4-----5-------4-----|--2--0-----2~------------|
D||*-------------------------|-----------2~------------|
A||---0-----0--0--0~---0--0--|--0-----0-----0----0-----|
E||--------------------------|----------------------0--|
Rhiannon....

Am F
Dreams unwind Dreams unwind and love's a state of mind

Solo

-------------5-7p5---8p5---7p5---8p5----8--7--5--------5----------------------
-1-1-1-1-----5-----5-----5-----5-----5---5--5--5--8------8-5---5--------------
-2-2-2-2-----------------------------------------------------7---7-7-7--------
-3-3-3-3----------------------------------------------------------------------
-3-3-3-3-----0----------------------------------------------------------------

------------------------------------------------------------------------------


--------|---------|-----------------|-----------------|-----------------|-----
--------|-3-1p0---|-----------------|-----------------|-----------------|-----
-2-2-2v-|-------2-|-2p0-----2p0-----|-----------------|-----------------|-----
--------|---------|-----2p0-----2p0-|-2p0-----2p0-----|-----------------|-----
--------|---------|-----------------|-----2p0-----2p0-|-2p0-----2p0-----|-----
--------|---------|-----------------|-----------------|-----1p0-----1p0-|-1---
x4 x2 x2 x2

--------5-8p5-----8p5-----8p5-----8p5-----8p5-5-5v----------------------------
------8-------8p5-----8p5-----8p5-----8p5----------------15br-15br--15brp13---
------------------------------------------------------------------------------
------------------------------------------------------------------------------
------------------------------------------------------------------------------
-1----------------------------------------------------------------------------


----|----------|----15-----15-----15-----15--15--15--15--15--|-15--15-15-15---
----|----------|-15b---15b----15b----15b-----15b-15b-15b-15b-|-15--13-12-13---
-14-|-15p13----|---------------------------------------------|----------------
----|-------14-|---------------------------------------------|----------------
----|----------|---------------------------------------------|----------------
----|----------|---------------------------------------------|----------------
x4 x2

--------------17--------------------------------------------------------------
-12---------------------------------------------------------------------------
----14v-----------14v-------14bvvvvvvvvvvvvvvvvvv--14v------------------------
------------------------------------------------------------------------------
------------------------------------------------------------------------------
------------------------------------------------------------------------------

Outro

Am G F G Am
Dreams unwinde and love's a state of mind........I know*
Take me like the wind..................................*

*riffs

|---------------------|
|-0-1-3-1-0-----------|
|-----------0h2p0-----|
|-----------------3v--|
|---------------------|
|---------------------|

|---5---5--5-----5-5----|
|-5---5--5-----5-----5--|
|------------7----------|
|-----------------------|
|-----------------------|
|-----------------------|

|---5----5---5-|
|---5----5---5-|
|-7----5----4--|
|--------------|
|--------------|
|--------------|

|------------|
|------------|
|-7--5--(4)--|
|------------|
|------------|
|------------|

G/Am Am
All The Same

|-----------|
|-0-1-1-1-1-|
|-0-2-2-2-2-|
|-0-2-2-2-2-|
|-0-2-2-2-2-|
|-----------|

Outro Solo

---------------5-3-5---5---5---5------5---5------5--5-----5-------3-5-5---7---
-1--1-0-1--1---------3--------------------------------------5-3-5-------------
-2---------2-------------5---4----2--2-2-2-2v--2-2-2-2v-----------------------
-2---------2------------------------------------------------------------------
-0----------------------------------------------------------------------------
------------------------------------------------------------------------------


-8-10-12-/15-17-17v---------------------17------------------------------------
------------------------------------------------------------------------------
---------------------14-14-14----14----------14-14-14-14---17-17-16-17-16-16--
------------------------------17----17-------17-17-17-17----------------------
------------------------------------------------------------------------------
------------------------------------------------------------------------------


------------------------------------------------------------------------------
------------------------------------------------------------------------------
-17-17-17-16-16-16-14-14-14-12-12-12-14-14-14-16-16-16-17-17-17-17-16-16-16---
------------------------------------------------------------------------------
------------------------------------------------------------------------------
------------------------------------------------------------------------------


------------------------15--15--15--15-------15-----15-----15-----15----------
----------13-13--15-15--15b-15b-15b-15b--15b----15b----15b----15b-----15br----
-14-14-14---------------------------------------------------------------------
------------------------------------------------------------------------------
------------------------------------------------------------------------------
------------------------------------------------------------------------------


--------------------------------15----15--15--15--15--15----------------------
-p13----15p13----15p13------15b----15b----15b-15b-15b-15b--15-13--------------
-----14-------14-------14----------------------------------------14-----------
------------------------------------------------------------------------------
------------------------------------------------------------------------------
------------------------------------------------------------------------------

Rhiannon
------------------------------------------------------------------------------
-1-1-1--1-1-1-1-1-1-1--1-1-1-1-1-1-1-1--1p0----1p0---1p0--1p0---1-1-------1---
-2-2-2--2-2-2-2-2-2-2--2-2-2-2-2-2-2-2--------------------------2-2-------2---
-3-3-3--3-3-3-3-3-3-3--3-3-3-3-3-3-3-3--------------------------3-3-------3---
-3-3-3--3-3-3-3-3-3-3--3-3-3-3-3-3-3-3--------------------------3-3-------3---
------------------------------------------------------------------------------

Другие песни исполнителя

ПесняИсполнительВремя
01need your love so badFleetwood Mac3:48
02never going back againFleetwood Mac2:15
03oh wellFleetwood Mac2:23
04shake your money makerFleetwood Mac
05silver springsFleetwood Mac5:43
06stormsFleetwood Mac5:32

Слова и текст песни Fleetwood Mac rhiannon предоставлены сайтом Megalyrics.ru. Текст Fleetwood Mac rhiannon найден в открытых источниках или добавлен нашими пользователями.

Использование и размещение перевода возможно исключиетльно при указании ссылки на megalyrics.ru

О чем песня

Fleetwood Mac - rhiannon?

User comments
Прикрепить

Слушать онлайн Fleetwood Mac rhiannon на Megalyrics — легко и просто. Просто нажмите кнопку play вверху страницы. Чтобы добавить в плейлист, нажмите на плюс около кнопки плей. В правой части страницы расположен клип, а также код для вставки в блог.

Новые тексты и переводы

Пожалуйста, включите JavaScript

Он необходим для работы плеера. Как это сделать