Fleetwood Mac - the chain

Текст песни Fleetwood Mac - the chain

Author/Artist: Fleetwood Mac
Title: The Chain
Album: Mirage Tour Live
Transcribed by: Giz
Email: giz_hornbeast@hotmail.com

Tuning DADGBd
Capo 2nd

Intro

-|---------------------0--------0----------0--|----3-0-0----------------------
-|---------------------3--------3----------3--|----3-3-3----------------------
-|--------------------------------------------|-------------------------------
-|--------------------------------3p0---------|-----------3p0-----------------
-|-0-3-5------------------0-3-5---------------|-------------------------------
-|-------0--3b-3b-0-------------------3b-0----|--0------------3p0-0-----------
x4

---53--0-0------------53--0-0----------------------------|------------------
-----3--3-3--------------3--0-0----------------------------|----1---1-1h3-----
-----------------------------------------------------------|------------------
--------------0----0-------------3p0---------0---0---0---0-|------------------
------------3----------------------------------------------|------------------
----------------3--------------------3--0--0---0---0---0---|--0---0-------0---


------3--3-3--|------0-0-0------0-0-0-|-0-0-0-0-0--0-0-0--0-0-0--0------------
--1---3--1h3--|------3-3-3------3-3-3-|-3-3-3-3-3--3-3-3--3-3-3--3------------
--------------|-----------------------|---------------------------------------
--------------|----0-----0----0-------|------------3-2-0----------------------
--------------|------3h5--------3h5---|-------------------3-2-0---------------
----0---------|--0----------0---------|--------------------------3b-0---------
x2 x3

Verse

----------------------------------------------------------0-0-0---------------
----------------------------------------------------------3-3-3---------------
----2-------------------------------------------------------------------------
------0-------0-----------------------------------------0----------0----------
---------3p0------------------------3--------1-------------------3------------
--0---------------5---------3-------------------0---------------------3b-3b---


------------------------------------------------------------------------------
------------------------------------------------------------------------------
------------------------------------------------------------------------------
-------0----------------------------------------------0-------0---------------
----3b-----------------------------3--------1-----------0--3b-----------------
-0----------------5----------3-----------------0---0--------------------------


Chorus

-|----------------------------------------------------------------------------
-|----------------------------------------------------------------------------
-|------------------------------------7---7-7-7------3--3-3-3----5---5-5--5-5-
-|-5---5---5----5----5---5----5----5--7---7-7-7------3--3-3-3----5---5-5--5-5-
-|-5---5---5----5----5---5----5----5--5---5-5-5------1--1-1-1----3---3-3--3-3-
-|-5---5---5----5----5---5----5----5------------------------------------------


------|---------------------|-----0-0-0-----0-0-0-|--0-0-0-0-0-0--------------
------|-------1-----1---1h3-|-----3-3-3-----3-3-3-|--3-3-3-3-3-3--------------
--5-5-|---------------------|---------------------|---------------------------
--5-5-|-----0-----0---0-----|---0-----0----0------|--3-2-0--------------------
--3-3-|---------------------|-----3h5--------3h5--|--------3-2-0--------------
------|---0-----0-----------|-0----------0--------|--------------3b-0---------
x2 x2

Verse 2
--------------------------------------------------------0-0-0-0--3-0-0----
--------------------------------------------------------3-3-3-3--3-3-3----
----2---------------------------------------------------------------------
------0-------0-----------------------------------------------------------
---------3p0------------------------3--------1----------------------------
--0---------------5---------3-------------------0-------------------------

-----------------------------------------------------------5---3---5---3-----
-------------------------------------------------------------3---3---3---1-3-
-----------------------------------------------------------------------------
--3-0-0----------3-5---------------------------------------------------------
--------3p0-----------------------------------3---------1--------------------
------------3-0-------------5--------3--------------------0------------------


-------------------------------------------------------0-0-0--0-0-0--0-0-0-
-------------------------------------------------------3-3-3--3-3-3--3-3-3-
-------------------------------------------------------2-2-2--2-2-2--2-2-2-
---------------------------------------------------------------------------
-------------------------------------3---------1---------------------------
--0--3b--0------------5-------3------------------0-------------------------

Chorus

-|----------------------------------------------------------------------------
-|----------------------------------------------------------------------------
-|------------------------------------7---7-7-7------3--3-3-3----5---5-5--5-5-
-|-5---5---5----5----5---5----5----5--7---7-7-7------3--3-3-3----5---5-5--5-5-
-|-5---5---5----5----5---5----5----5--5---5-5-5------1--1-1-1----3---3-3--3-3-
-|-5---5---5----5----5---5----5----5------------------------------------------


------|
------|
--5-5-|
--5-5-|
--3-3-|
------|
x2

Break

----|----------2--2------|
----|-----------3--3-----|
----|--2---2-3---3--3----|
----|----0---------------|
----|--------------------|
--0-|--------------------|
x5

Main Theme

(Bass)

G|---------------------------------------|
D|---------------------------------------|
A|--0--0--2--3--2--0-----0--2------------|
E|-------------------3--------0---------|

G|---------------------------------------|
D|---------------------------------7-----|

A|--0--0--2--3--2--0-----0--2-2/7----7---|
E|--------------------3--------------0---|

G|-------------------------------------------|
D|-------------------------------------------|
A|--0--0--2--3--2--0-----0--2/7--7-7-7--5-3--|
E|--------------------3----------------------|

G|------------------------------------------8h9-7-----------------|
D|------------------------------------------------9-7-5-----------|
A|--0--0--2--3--2--0-----0--2-2/7--7-7-7----------------7--5-7----|
E|--------------------3-------------------------------------------|

(Backing Guitar)

|------0-----0-|-0-0-0-0-0-0-0-0-0-0-|
|--------------|-1-3-3-3-3-3-3-3-3-3-|
|--------------|---------------------|
|-0-2-3--2--0--|---------------------|
|--------------|---------------------|
|--------------|---------------------|
x4

First Solo

--0----0-0-0-|--0-----0--0-0-0-|--0---------|--0---------3-|--0-0-0-----------
--1h3--3-3-3-|--3p1---3--3-3-3-|--3p1--1----|--3p1-------3-|--3-3-3-----------
-------------|------2----------|-------2p0--|-------2p0----|------------------
-------------|-----------------|------------|--------------|------------------
-------------|-----------------|------------|--------------|------------------
-------------|-----------------|------------|--------------|------------------
x4 x4 x4

-------|--14-14-14-17---14-14-19-|--14-14--17----14-14-14-14---14-14-14-14----
--3/17-|--17-17-17-17---17-17-17-|--17-17--17----17-17-17-17---17-17-17-17----
-------|-------------------------|--------------------------------------------
-------|-------------------------|--------------------------------------------
-------|-------------------------|--------------------------------------------
-------|-------------------------|--------------------------------------------
x3

Main Theme Chorus

|--14-14-14-14-14-14-14-14--|
|--17-17-17-17-17-17-17-17--|
|---------------------------|
|---------------------------|
|---------------------------|
|---------------------------|
cont. throught vocals

Outro Solo

--0----0-0-0-|--0-----0--0-0-0-|--0---------|--0---------3-|--0-0-0-----------
--1h3--3-3-3-|--3p1---3--3-3-3-|--3p1--1----|--3p1-------3-|--3-3-3-----------
-------------|------2----------|-------2p0--|-------2p0----|------------------
-------------|-----------------|------------|--------------|------------------
-------------|-----------------|------------|--------------|------------------
-------------|-----------------|------------|--------------|------------------
x4 x4 x4

-------|--14-14-14-17---14-14-19-|--14-14--17----14-14-14-14---14-14-14-14----
--3/17-|--17-17-17-17---17-17-17-|--17-17--17----17-17-17-17---17-17-17-17----
-------|-------------------------|--------------------------------------------
-------|-------------------------|--------------------------------------------
-------|-------------------------|--------------------------------------------
-------|-------------------------|--------------------------------------------
x3

-|-14-14-17-14-14-19-|--14-14-14--17-19b-------|-------------------|--17------
-|-17-17-17-17-17-17-|--17-17-17----------17b--|-15p12----15p12----|-----15b--
-|-------------------|-------------------------|-------14-------14-|----------
-|-------------------|-------------------------|-------------------|----------
-|-------------------|-------------------------|-------------------|----------
-|-------------------|-------------------------|-------------------|----------
x3

--17-----------17-17-17------|-----------3---------|--------------------------
------15bvvv---15b15b15bvvvv-|-1-1--3-3-----1-1--3-|--1-1--1-3---15-17--1-3---
-----------------------------|---------------------|--------------------------
-----------------------------|-0-------------------|--------------------------
-----------------------------|---------------------|--------------------------
-----------------------------|---------------------|--------------------------
x2

--20b--17--------20b--17-------------------17-14--17-14--17-14---14-14-14-14--
-----------1-3------------1-3---3-1--1-3---x------x------x-------17-17-17-17--
------------------------------------------------------------------------------
------------------------------------------------------------------------------
------------------------------------------------------------------------------
------------------------------------------------------------------------------


-14---14-14-14--14-17-14-19-14-21---14-14-14-|-14-14-14--16-16-16--17-17-17---
-17---17-17-17--17-17-17-17-17-17---17-17-17-|-17-17-17--17-17-17--17-17-17---
---------------------------------------------|--------------------------------
---------------------------------------------|--------------------------------
---------------------------------------------|--------------------------------
---------------------------------------------|--------------------------------


--16-16-16--17-17-17--16-16-16-|--17p14-17p14-17p14-17p14-17p14-14--|-14-14---
--17-17-17--17-17-17--17-17-17-|--17-17-17-17-17-17-17-17-17-17-17--|-17-17---
-------------------------------|------------------------------------|---------
-------------------------------|------------------------------------|---------
-------------------------------|------------------------------------|---------
-------------------------------|------------------------------------|---------
x6 x2

-14-14-14-14-14-14-14-|-------x--------x--------x--------------------------
-17-17-17-17-17-17-17-|-------x--------x--------x----x/--------------------
----------------------|--x/----------x/-------x/--------x/--------------------
----------------------|-------------------------------------------5-5--5-7-8--
----------------------|----------------------------------------0--5-5--5-7-8--
----------------------|----------------------------------------0--5-5--5-7-8--
x6

------------------0-----------------------------------------------------------
------------------3-----------------------------------------------------------
------------------------------------------------------------------------------
--7-5-3-5-7--0---------3p0-3p0--3p0------3p0----------------------------------
--7-5-3-5-7--0----------------------3p0------3p0--3p0------3p0----------------
--7-5-3-5-7--0----------------------------------------3p0------3p0-3b-3b-0-0--


----0-0-0-0--0-0-0-0-0--0-0-0-0-0-0-0--0-0-0-----------0--0-------------------
----3-3-3-3--3-3-3-3-3--3-3-3-3-3-3-3--3-3-3-----------3--3-------------------
----2-2-2-2--2-2-2-2-2--2-2-2-2-2-2-2--2-2-2-----------2--2-------------------
----0-0-0-0--0-0-0-0-0--0-0-0-0-0-0-0--0-0-0-----------0--0-------------------
--0-0-0-0-0--0-0-0-0-0--0-0-0-0-0-0-0--0-0-0-----------0--0-------------------
--0-0-3p0-3p-0-3p0-0-3p00-0-0-0-0-0-0--0-0-0-----------0--0-------------------

Другие песни исполнителя

ПесняИсполнительВремя
01go your own wayFleetwood Mac3:37
02gold dust womanFleetwood Mac5:03
03landslideFleetwood Mac3:19
04tuskFleetwood Mac3:13
05angelFleetwood Mac3:54
06as long as you followFleetwood Mac4:10

Слова и текст песни Fleetwood Mac the chain предоставлены сайтом Megalyrics.ru. Текст Fleetwood Mac the chain найден в открытых источниках или добавлен нашими пользователями.

Использование и размещение перевода возможно исключиетльно при указании ссылки на megalyrics.ru

О чем песня

Fleetwood Mac - the chain?

User comments
Прикрепить

Слушать онлайн Fleetwood Mac the chain на Megalyrics — легко и просто. Просто нажмите кнопку play вверху страницы. Чтобы добавить в плейлист, нажмите на плюс около кнопки плей. В правой части страницы расположен клип, а также код для вставки в блог.

Новые тексты и переводы

Пожалуйста, включите JavaScript

Он необходим для работы плеера. Как это сделать