Foo Fighters - monkey wrench

Текст песни Foo Fighters - monkey wrench

Artist: Foo Fighters Song: Monkey Wrench
------------------------------------------

This is the RHYTHM music for the song.
This is the tab for the intro ,the verses ,the post chorus and the screaming part but mute it on the verses:

This is in dropped 'D':

|-------------------------------------------------------------------
|-------------------------------------------------------------------
|-4-4-4-4-4-4-4-4-4-4-4-4-4-----------------------------------------
|-4-4-4-4-4-4-4-4-4-4-4-4-4-4-4-4-4-2-2-2-2-2-2-2-2-2-2-0-2-0-2-0---
|-2-2-2-2-2-2-2-2-2-2-2-2-2-4-4-4-4-2-2-2-2-2-2-2-2-2-2-0-2-0-2-0---
|---------------------------4-4-4-4-2-2-2-2-2-2-2-2-2-2-0-2-0-2-0---

Pre chorus:

|------------------------------
|------------------------------
|------------------------------
|-2---2-2-0-2--0-2-0-2-0-2-0---
|-2---2-2-0-2--0-2-0-2-0-2-0---

|-2---2-2-0-2--0-2-0-2-0-2-0---

Chorus:

|---------------------------------------------------------------
|---------------------------------------------------------------
|---------------------------------------------------------------
|-9--9--9-9-9--6--6-6--6-6-6--4--2-2--2-2-2--4--2-2--4-2---10---
|-9--9--9-9-9--6--6-6--6-6-6--4--2-2--2-2-2--4--2-2--4-2---10---
|-9--9--9-9-9--6--6-6--6-6-6--4--2-2--2-2-2--4--2-2--4-2---10---

Part after second chorus 'temper':

|-----------------------------------------------------------
|-----------------------------------------------------------
|--------4--------------------------------------------------
|-6---2--4---5--5-5--5-5-5--4--2-2--2-2-2--4--2-2--2-2-2/---
|-6---2--2---5--5-5--5-5-5--4--2-2--2-2-2--4--2-2--2-2-2/---
|-6---2------5--5-5--5-5-5--4--2-2--2-2-2--4--2-2--2-2-2/---

Tabed by Gmessiah.

Перевод песни Foo Fighters - monkey wrench

Куда мы дели свою невинность?
Она исчезла со временем,
В ней никогда особо не было смысла.
Я застрял в детстве
И еще одну ночь трачу на то,
Чтобы спланировать свою месть...

Один из десяти,
Один из десяти,
Один из десяти!

[Припев:]
Не хочу быть инструментом в твоих руках,
Очередной неприличной случайностью,
Лучше уйду, чем буду такое терпеть,
Никогда не стану инструментом в твоих руках.

Время дано для возмещения убытков,
А что делать,
Когда все твои враги - друзья?
Я то и дело пытаюсь
Согнуться под давлением
И в итоге ломаюсь...

Один из десяти,
Один из десяти,
Один из десяти!

[Припев]

(Спокойно, спокойно, спокойно...)

Вот последнее, что скажу перед уходом:
Я всегда хотел ровно столько,
Сколько мог уместить в голове,
До сих пор помню каждое твое слово
И все то дер*мо,
Которое так или иначе было приложением.
Но хоть одно
Меня успокаивает:
Раньше всю жизнь сидел в клетке,
А теперь свободен...

[Припев]
malexa | Перевод

Другие песни исполнителя

ПесняИсполнительВремя
01hey johnny parkFoo Fighters4:08
02how i miss youFoo Fighters4:54
03ill stick aroundFoo Fighters3:52
04my heroFoo Fighters4:19
05my poor brainFoo Fighters3:33
06new way homeFoo Fighters5:40

Слова и текст песни Foo Fighters monkey wrench предоставлены сайтом Megalyrics.ru. Текст Foo Fighters monkey wrench найден в открытых источниках или добавлен нашими пользователями.

Перевод песни Foo Fighters monkey wrench выполнен автором malexa.

Использование и размещение перевода возможно исключиетльно при указании ссылки на megalyrics.ru

О чем песня

Foo Fighters - monkey wrench?

User comments
Прикрепить

Слушать онлайн Foo Fighters monkey wrench на Megalyrics — легко и просто. Просто нажмите кнопку play вверху страницы. Чтобы добавить в плейлист, нажмите на плюс около кнопки плей. В правой части страницы расположен клип, а также код для вставки в блог.

Новые тексты и переводы

Пожалуйста, включите JavaScript

Он необходим для работы плеера. Как это сделать