Lit - miserable

miserableLit4:16

Текст песни Lit - miserable

This took me a hell of a long time to do so it shud be mostly right

Intro
--------------------------------------------- -----
--------------------------------------------- -----
-------8----8----3----3--3-x---------------- --8-- end with this chord
-------8----8----3----3--3-x--3---3-----x-5- x3 --8--
-------6----6----1----1--1-x--3---3-----x-5- --6--
-------------------------------1---1-----x-3- -----
slide from this to this

Verse
----------------------------------------------------------
------6-----6-----6-----6-----6-----6-----6-----6---------
------7-----7-----7-----7-----7-----7-----7-----7---------
------7-----7-----7-----7-----7-----7-----7-----7---------
------x-----x-----x-----x-----x-----x-----x-----x---------
------6-----6-----6-----6-----6-----6-----6-----6------0--

----------------------------------------------------------
----------------------------------------------------------
----------------------------------------------------------
----5--5--5--5--5--5--5--5--5--5--5--5--5--5--5--5------x-
----5--5--5--5--5--5--5--5--5--5--5--5--5--5--5--5------x-
----3--3--3--3--3--3--3--3--3--3--3--3--3--3--3--3------x-

Pre - Chorus
--------------------------------------------------------------------------------
--------------------------------------------------------------------------------
-----8-----8-------8--x-x----3---3---------------------------3---3--------------
-----8-----8-------8--x-x----3---3---7^----7----7^-----------3---3----7^------7-
-----6-----6-------6--x-x----1---1---------------------------1---1--------------
--------------------------------------------------------------------------------
^ On this you only do a half bend

--------------------------------------------------------------------------------
--------------------------------------------------------------------------------
--------------------------------------------------------------------------------
------5-----------------------------------7^---(7)---------7^---(7)---7^--(7)---
---------------8---8-----8--8--8-8---9------------------------------------------
--------------------------------------------------------------------------------
^ When you bend these notes bring them back down aswell

Chorus
------------------------------------------------------------
------------------------------------------------------------
---8-----8---x--x--3------3---x--x--------------------------
---8-----8---x--x--3------3---x--x-----3-----3---x--x--5----
---6-----6---x--x--1------1---x--x-----3-----3---x--x--5----
---------------------------------------1-----1---x--x--3----

Ok this took some workin out but i think that i got it ! :)

------------------------------------------------------------------18-----
------------------15---15---13---15-------15---15---15-/-18---15---------
-------------------------------------------------------------------------
-------------------------------------------------------------------------
-------------------------------------------------------------------------

-------------------------------------------------------------------------
^ This is done by another guitar (dist.) ^

-------------------------------------------------------------------------------
----------------------------------6-----6-----6-----6-----6-----6-----6-----6--
----8---8----5--------------------7-----7-----7-----7-----7-----7-----7-----7--
----8---8----5--------------------7-----7-----7-----7-----7-----7-----7-----7--
----6---6----3--------------------x-----x-----x-----x-----x-----x-----x-----x--
----------------------------------6-----6-----6-----6-----6-----6-----6-----6--

---(18)-17--------------18--17--17---(17)--10----------------------------------18--
-----------18--18--15----------------------------15-15-13-15-15-13-15---15/18-15-----
-------------------------------------------------------------------------------------
-------------------------------------------------------------------------------------
-------------------------------------------------------------------------------------
-------------------------------------------------------------------------------------

-------------------------------------------------------------------------------------
--------------------------------------------6----6----6----6----6----6----6----6-----
----3----3----3----3----3----3----3----3----7----7----7----7----7----7----7----7-----
----5----5----5----5----5----5----5----5----7----7----7----7----7----7----7----7-----
----5----5----5----5----5----5----5----5----x----x----x----x----x----x----x----x-----
----3----3----3----3----3----3----3----3----6----6----6----6----6----6----6----6-----

>> gradual bend 1/4 1/2 3/4 full
--(18)---------------18---18---10--10--10--10--10--10--10--10--10--10--10--10--10--10
--------18--18--15-------------------------------------------------------------------
-------------------------------------------------------------------------------------
-------------------------------------------------------------------------------------
-------------------------------------------------------------------------------------
-------------------------------------------------------------------------------------

-------------------------------------------------------------------------------------
-------------------------------------------------------------------------------------
----3-----3-----3-----3-----3--------3--------3--------3-----------------------------
----5-----5-----5-----5-----5--------5--------5--------5-----------------------------
----6-----6-----6-----6-----5--------5--------5--------5-----------------------------
----3-----3-----3-----3-----3--------3--------3--------3-----------------------------

Woah!!

Outro - Chorus

-------------------------------------------------------------------------------------
-------------------------------------------------------------------------------------
---8-----------------------------8----8---x--x--3----3---x--x------------------------
---8-----------------------------8----8---x--x--3----3---x--x---3----3--x-x--5-------
---6-----------------------------6----6---x--x--1----1---x--x---3----3--x-x--5-------
----------------------------------------------------------------1----1--x-x--3-------

-------------------------------------------------------------------------------------
-------------------------------------------------------------------------------------
----------------------------------------------8---8---5-----------------(5)----------
-------------7--7^---------------(7)----------8---8---5-----------------(5)----------
----------------------------------------------6---6---3-----------------(3)----------
-------------------------------------------------------------------------------------

Другие песни исполнителя

ПесняИсполнительВремя
01happy in the meantimeLit2:49
02lipstick and bruisesLit3:00
03lovely dayLit4:06
04my own worst enemyLit2:49
05no big thingLit2:37
06over my headLit3:42

Слова и текст песни Lit miserable предоставлены сайтом Megalyrics.ru. Текст Lit miserable найден в открытых источниках или добавлен нашими пользователями.

Использование и размещение перевода возможно исключиетльно при указании ссылки на megalyrics.ru

О чем песня

Lit - miserable?

User comments
Прикрепить

Слушать онлайн Lit miserable на Megalyrics — легко и просто. Просто нажмите кнопку play вверху страницы. Чтобы добавить в плейлист, нажмите на плюс около кнопки плей. В правой части страницы расположен клип, а также код для вставки в блог.

Новые тексты и переводы

Пожалуйста, включите JavaScript

Он необходим для работы плеера. Как это сделать