Moby - everloving

everlovingMoby3:25

Текст песни Moby - everloving

Em
|------------------------------------------------|
|------------------------------------------------|
|---------------0--------------------0-----------|
|------2-----------2--------2-----------2--------|
|---------2-----------2--------2-----------2-----|
|-0----------0-----------0--------0-----------0--|

Em
|------------------------------------------------|
|------------------------------------------------|
|-0-------------0-----------0-----------0--------|
|------2-----------2-----------2-----------2-----|
|---------2-----------2-----------2-----------2--|
|------------0-----------0-----------0-----------|

C
|------------------------------------------------|
|------1--------------------1--------------------|
|---------0--------0-----------0--------0--------|
|------------0--------0-----------0--------0-----|
|-3-------------3--------3-----------3--------0--|
|------------------------------------------------|

G
|------------------------------------------------|
|---------------0-----------0--3-----------0-----|
|------------------0--------------0--------------|
|------0--------------0--------------0-----------|
|---------2--------------------------------------|
|-3----------3-----------3--------------3-----3--|

Em
|-----------------------------------------------|
|-----------------------------------------------|
|---------------0-------------0-----------------|
|------2-----------2-------------2--------2-----|
|---------2-----------2-------------2--------2--|
|-0----------0-----------0-------------0--------|

Em
|-------------------------------------------------|
|-------------------------------------------------|
|----0-----------0-----------0--------------------|
|-------2-----------2-----------2--------2--------|
|----------2-----------2-----------2--------2-----|
|-0-----------0-----------0-----------0--------0--|

C
|-------------------------------------------------|
|----------------1-----------1--------------------|

|-------0-----------0-----------0--------0--------|
|----------0-----------0-----------0--------0-----|
|-3-----------3-----------3-----------3--------0--|
|-------------------------------------------------|

G
|------------------------------------------------|
|---------------0--------------------0-----------|
|------------------0-----------------------0-----|
|------0--------------0-----0--------------------|
|---------2--------------------2--------------0--|
|-3----------3-----------3--------3-----3--------|

Am
|------------------------------------------------|
|---------------1--------------------1-----------|
|------2-----------2--------2-----------2--------|
|---------2-----------2--------2-----------2-----|
|-0----------0-----------0--------0-----------0--|
|------------------------------------------------|

Em
|---------------------------------------------|
|---------------------------------------------|
|---------------0--------------------0--------|
|------2-----------2--------2-----------2-----|
|---------2-----------2--------2-----------2--|
|-0----------0-----------0--------0-----------|

Em
|----------------------------------------------------|
|----------------------------------------------------|
|-------------0--------------------0-----------------|
|----2-----------2--------2-----------2--------2-----|
|-------2-----------2--------2-----------2--------2--|
|-0--------0-----------0--------0-----------0--------|

2x
D
|---------------2--------------------2-----------|
|------3-----------3--------3-----------3--------|
|---------2-----------2--------2-----------2-----|
|-0----------0-----------0--------0-----------0--|
|------------------------------------------------|
|------------------------------------------------|

Am
|------------------------------------------------|
|--------------

Другие песни исполнителя

ПесняИсполнительВремя
01Slipping awayMoby3:37
02SpidersMoby3:42
03at least we triedMoby4:09
04flowerMoby3:26
05guitar flute and stringMoby2:11
06if things were perfectMoby4:18

Слова и текст песни Moby everloving предоставлены сайтом Megalyrics.ru. Текст Moby everloving найден в открытых источниках или добавлен нашими пользователями.

Использование и размещение перевода возможно исключиетльно при указании ссылки на megalyrics.ru

О чем песня

Moby - everloving?

User comments
Прикрепить

Слушать онлайн Moby everloving на Megalyrics — легко и просто. Просто нажмите кнопку play вверху страницы. Чтобы добавить в плейлист, нажмите на плюс около кнопки плей. В правой части страницы расположен клип, а также код для вставки в блог.

Новые тексты и переводы

Пожалуйста, включите JavaScript

Он необходим для работы плеера. Как это сделать