Red Hot Chili Peppers - Snow (Hey Ho)

Текст песни Red Hot Chili Peppers - Snow (Hey Ho)

Red Hot Chili Peppers - Snow (Hey Ho)

(INTRO)
e|---------------------|---------------------|
B|---------------------|---------------------|
G|-----4---4h-6h-4---4-|-----4---4h-6h-4---4-|
D|---6---6---------6---|---6---6---------6---|
A|-6-------------------|-7-------------------|
E|---------------------|---------------------|

е|---------------------|---------------------|
B|---------------------|---------------------|
G|---------------------|-----6---6h-8h-6---6-|
D|-----4---4h-6h-4---4-|---8---8---------8---|
A|---6---6---------6---|-9-------------------|
E|-7-------------------|---------------------|


е|---------------------|---------------------|
B|---------------------|---------------------|
G|-----4---4h-6h-4---4-|-----4---4h-6h-4---4-|
D|---6---6---------6---|---6---6---------6---|
A|-6-------------------|-7-------------------|
E|---------------------|---------------------|

е|---------------------|---------------------|
B|---------------------|---------------------|
G|---------------------|---------------------|
D|-----4---4h-6h-4---4-|-----4---4h-6h-4---4-|
A|---6---6---------6---|---4---4---------6---|
E|-7-------------------|-6-------------------|

Другие песни исполнителя

ПесняИсполнительВремя
01Dr. Funkenstein (Live)Red Hot Chili Peppers1:11
02Leverage Of SpaceRed Hot Chili Peppers3:29
03By the Way(Кстати)Red Hot Chili Peppers
04A Teenager In LoveRed Hot Chili Peppers
05Give It Away NowRed Hot Chili Peppers
06BobRed Hot Chili Peppers

Слова и текст песни Red Hot Chili Peppers Snow (Hey Ho) предоставлены сайтом Megalyrics.ru. Текст Red Hot Chili Peppers Snow (Hey Ho) найден в открытых источниках или добавлен нашими пользователями.

Использование и размещение перевода возможно исключиетльно при указании ссылки на megalyrics.ru

О чем песня

Red Hot Chili Peppers - Snow (Hey Ho)?

User comments
Прикрепить

Слушать онлайн Red Hot Chili Peppers Snow (Hey Ho) на Megalyrics — легко и просто. Просто нажмите кнопку play вверху страницы. Чтобы добавить в плейлист, нажмите на плюс около кнопки плей. В правой части страницы расположен клип, а также код для вставки в блог.

Новые тексты и переводы

Пожалуйста, включите JavaScript

Он необходим для работы плеера. Как это сделать